It's a demo-version of tablature

You can play only first 20 seconds.
Create account or login to play full version!
# A B C D E F G H I J K L M N O P Q R S T U V W X Y Z

Against The Current — Roses guitar tab & chords DEMO VERSION

pop punk rock alternative 5 Hits 660 Download tab

Rate this tab

Add to collection

Other Against The Current songs

Tabs player
Chords view
Roses – Against the Current

[Intro]

e|-10-10-10-10-9-9---------0----7------7-7-7-7---10-10-10-10-9-9-------------0-2-5|
B|------------------10-10---------------------------------------------10-10-------|
G|--------------------------------------------------------------------------------|
D|--------------------------------------------------------------------------------|
A|--------------------------------------------------------------------------------|
E|--------------------------------------------------------------------------------|

e|-10-10-10-10-9-9---------0----7------7-7-7-7---10-10-10-10-9-9-------------0-2-5|
B|------------------10-10---------------------------------------------10-10-------|
G|--------------------------------------------------------------------------------|
D|--------------------------------------------------------------------------------|
A|--------------------------------------------------------------------------------|
E|--------------------------------------------------------------------------------|


[Verse 1]       

A           E                     D
Waited all night for you to come home
A         E             D
I always hated sleeping alone
             A             E
Watching the roses wither away
            A                          D
Wishing my memories would die out the same
A             E                     D
I waited all night, yeah, you never came


[Chorus]

           D                   A
I miss the long nights under street lights
          E                   F#m
When our hearts were made of gold
            D               A
I miss the feeling that we had then
         E            F#m
We were never growing old
 F#m            D
Yeah, I miss it all
D    A        E        F#m
Whoa oh, whoa oh, whoa oh
     F#m        D
Yeah, I miss it all
D     A        E     F#m
Whoa oh, whoa oh, whoa oh


[Verse 2]

A          E                      D
Everyone's trying to help me move on
A                 E                D
They say it gets better in the long run
                         A                 E
You could say that I've had a couple good days
              A                        D
But nobody's eyes shine quite the same way
A                E                    D
I waited all night, yeah, you never came


[Chorus]

                   D                                      A
           D                   A
I miss the long nights under street lights
          E                   F#m
When our hearts were made of gold
            D               A
I miss the feeling that we had then
         E            F#m
We were never growing old
 F#m            D
Yeah, I miss it all
D    A        E        F#m
Whoa oh, whoa oh, whoa oh
     F#m        D
Yeah, I miss it all
D     A        E     F#m
Whoa oh, whoa oh, whoa oh


[Riff]

e|-10-10-10-10-9-9---------0----7------7-7-7-7---10-10-10-10-9-9-------------0-2-5|
B|------------------10-10---------------------------------------------10-10-------|
G|--------------------------------------------------------------------------------|
D|--------------------------------------------------------------------------------|
A|--------------------------------------------------------------------------------|
E|--------------------------------------------------------------------------------|

e|-10-10-10-10-9-9---------0----7------7-7-7-7---10-10-10-10-9-9-------------0-2-5|
B|------------------10-10---------------------------------------------10-10-------|
G|--------------------------------------------------------------------------------|
D|--------------------------------------------------------------------------------|
A|--------------------------------------------------------------------------------|
E|--------------------------------------------------------------------------------|


[Verse 3]

A           E                    D
Waited all night for you to come home
A         E              D
I always hated sleeping alone
                 A                      E
I hope that the lipstick I left on your face
                   A                    D
Stays red like the roses I laid on your grave


[Chorus]

                     D                   A
I miss the long nights under street lights
          E                   F#m
When our hearts were made of gold
            D               A
I miss the feeling that we had then
         E            F#m
We were never growing old
 F#m            D
Yeah, I miss it all
D    A        E        F#m
Whoa oh, whoa oh, whoa oh
     F#m        D
Yeah, I miss it all
D     A        E     F#m
Whoa oh, whoa oh, whoa oh


[Outro]

e|-10-10-10-10-9-9---------0----7------7-7-7-7---10-10-10-10-9-9-------------0-2-5|
B|------------------10-10---------------------------------------------10-10-------|
G|--------------------------------------------------------------------------------|
D|--------------------------------------------------------------------------------|
A|--------------------------------------------------------------------------------|
E|--------------------------------------------------------------------------------|

e|-10-10-10-10-9-9---------0----7------7-7-7-7---10-10-10-10-9-9-------------0-2-5|
B|------------------10-10---------------------------------------------10-10-------|
G|--------------------------------------------------------------------------------|
D|--------------------------------------------------------------------------------|
A|--------------------------------------------------------------------------------|
E|--------------------------------------------------------------------------------| 
  • Piano
  • Chromatic Percussion
  • Organ
  • Guitar
  • Bass
  • Strings
  • Ensemble
  • Brass
  • Reed
  • Pipe
  • Synth Lead
  • Synth Pad
  • Synth Effects
  • Ethnic
  • Percussive
  • Sound Effects
  • Drum Kits
    Loading samples /
    This tab is in tuning. You can make it sound as if it was in standard tuning by changing the pitch .

    Even beginners can play Roses by Against The Current like a pro! It's very easy: take your guitar and watch tablature & chords in our online player.

    Loading samples...
    0%