It's a demo-version of tablature

You can play only first 20 seconds.
Create account or login to play full version!
# A B C D E F G H I J K L M N O P Q R S T U V W X Y Z

Chris Farren — Belize Navidad guitar tab & chords

5 Hits 783

Rate this tab

Add to collection

Other Chris Farren songs

[Intro]
C Am F G
C Am F G C

[Verse]
C         Am  F               G
I wish it was Christmas every day
C         Am  F         G     C 
I wish it was Christmas every day

[Main riff]
(this is the acoustic guitar bit which runs all the way through the song)
e|-------------------------------------------------------------------------|
B|-------------------------------------------------------------------------|
G|-------------------------------------------------------------------------|
D|-----2-------2--------2-------2--------2------2------0-------0-----------|
A|-3-------3--------3-0---0-3-0---0--3-------3-----2-------2---------------|
E|---3---3---3---3---------------------1---1---1-----3---3---3---3---------|

e|-------------------------------------------------------------------------|
B|-------------------------------------------------------------------------|
G|-------------------------------------------------------------------------|
D|-----2-------2--------2-------2--------2-------0-------2-----------------|
A|-3-------3--------3-0---0-3-0---0--3-------2-------3---------------------|
E|---3---3---3---3---------------------1---1---3--3----3---3---------------|

Even beginners can play Belize Navidad by Chris Farren like a pro! It's very easy: take your guitar and watch tablature & chords in our online player.

Chris Farren — Dont Be Cruel Acoustic
Chris Farren — Still Beating
Chris Farren — Flowers
Chris Farren — Say U Want Me