It's a demo-version of tablature

You can play only first 20 seconds.
Create account or login to play full version!
# A B C D E F G H I J K L M N O P Q R S T U V W X Y Z

Skillet — Sometimes guitar tab & chords DEMO VERSION

christian rock alternative rock rock 5 Hits 1615 Download tab

Rate this tab

Add to collection

Other Skillet songs

Tabs player
Chords view
Skillet — Sometimes guitar tab & chords
Sometimes
Skillet

Please rate...

Intro (Play tabs in successive order.)

G5   Eb5   Bm

|7-7-7-7-7-7|
|7-7-7-7-7-7|
|-----------|
|-----------|
|-----------|

|-------------------------------|
|-------------------------------|
|-------------------------------|
|7-7-7---17---7-7---19---12---14|
|7-7-7---17---7-7---19---12---14|
|7-7-7---17---7-7---19---12---14|

|-------------------------------------------------|
|-------------------------------------------------|
|11-11--------------------11-11--------------12-12|
|------11-11--12-12--9-9--------11-11--12-12------|
|-------------------------------------------------|
|-------------------------------------------------|  (2x)

Verse 1

Bm                       
Sometimes when I lie

G                   
I know you're onto me

Bm                                            
Sometimes I don't mind

G           A          Bm
How hateful that I can be

Bm
Sometimes I don't try

G
To make you happy

  D                A      G              A
I don't know why I do the things I do to you but...


Chorus

G                 Em       Bm
Sometimes I don't wanna be better

G                    Em         Bm 
Sometimes I can't be put back together

G                   Em        Bm 
Sometimes I find it hard to believe

                G              Bm
There's someone else who could be

G       A            Bm
Just as messed up as me

|-------------------------------|
|-------------------------------|
|-------------------------------|
|7-7-7---17---7-7---19---12---14|
|7-7-7---17---7-7---19---12---14|
|7-7-7---17---7-7---19---12---14|


|-------------------------------------------------|
|-------------------------------------------------|
|11-11--------------------11-11--------------12-12|
|------11-11--12-12--9-9--------11-11--12-12------|
|-------------------------------------------------|
|-------------------------------------------------|



Verse 2

Bm
Sometimes don't deny

G
That everything is wrong

Bm
Sometimes rather die

G         A           Bm
Than to admit it's my fault

Bm
Sometimes when you cry

G
I just don't care at all

  D                A      G              A
I don't know why I do the things I do to you but...


Chorus

G                 Em       Bm
Sometimes I don't wanna be better

G                    Em         Bm 
Sometimes I can't be put back together

G                   Em        Bm 
Sometimes I find it hard to believe

                G              Bm
There's someone else who could be

G       A            Bm
Just as messed up as me


(Guitar Solo)


Bridge

Bm                G
I want someone to hurt

Bm             G
Like the way I hurt

Bm               A             G
It's sick but it makes me feel better


Verse 3

Bm
Sometimes I can't hide

G
The demons that I face

Bm
Sometimes don't deny

G             A      Em  G     F#m
I'm sometimes sinner sometimes saint


Chorus

G                 Em       Bm 
Sometimes I don't wanna be better (Everything is wrong forever)

G                    Em         Bm 
Sometimes I can't be put back together (Sometimes it's gone forever)

G                   Em        Bm 
Sometimes I find it hard to believe

G               Em             Bm
There's someone else who could be

G       A            Bm
Just as messed up as me


Outro 

G       A          Bm
Just as messed up as me
  • Piano
  • Chromatic Percussion
  • Organ
  • Guitar
  • Bass
  • Strings
  • Ensemble
  • Brass
  • Reed
  • Pipe
  • Synth Lead
  • Synth Pad
  • Synth Effects
  • Ethnic
  • Percussive
  • Sound Effects
  • Drum Kits
    Loading samples /
    This tab is in tuning. You can make it sound as if it was in standard tuning by changing the pitch .

    Even beginners can play Sometimes by Skillet like a pro! It's very easy: take your guitar and watch tablature & chords in our online player.

    Loading samples...
    0%